Соль-Диез

Pink Floyd - Wish You Were Here. Версия 2

Вариант 1Вариант 2
INTRO: (Rhythm figure 1)
      Em7      G
E|---------------------3--3-3------3---------3---3-3-----------|
B|-----------------3-3-3--3-3----3-3-------3-3---3-3-----------|
G|-----------------0-0-0--0-0-0--0---0-----0-0-0-0-0-----------|
D|--------0----2--------------2--------2-0-----0-0-----------0-|
A|----0h2------------------------------------------------0h2---|
E|---------------------------------------------3-3----3--------|

     Em7     G
E|-----------3---3-3-3-3-------------------3----3--3-----------|
B|-------3---3---3-3-3-3-----------------3-3----3--3-----------|
G|-------0---0---0-0-0-0------0----------0-0-0--0--0-----------|
D|---2--------------------2--------2--0------0---------------0-|
A|------------------------------------------------------0h2----|
E|-------------------------------------------3-------3---------|

     Em7     A7sus4
E|-------3-3-3---3-3-3-3-------------------3-3-3----3-3--------|
B|-------3-3-3---3-3-3-3-------------------3-3-3----3-3--------|
G|-------0-0-0---0-0-0-0-------------------0-0-0---------------|
D|---2--------------------2---0---------2------2-------------0-|
A|--------------------------------2--0---------0---------0h2---|
E|-------------------------------------------------------------|

     Em7   A7sus4
E|-------3-3-3---3-3-3-3---------------------3---3-------------|
B|-------3-3-3---3-3-3-3---------------------3---3-----3-----3-|
G|-------0-0-0---0-0-0-0---------------------0---------0---0-0-|
D|---2-------------------2---0-----------2-2-------2-0-0---0-0-|
A|-------------------------------2---0---------0-------0h2-----|
E|-------------------------------------------------------------|

      G           (end Rhythm figure 1)
E|----3-------3-------3-----------3-3--3-------3-3-3-----------|
B|----3---3-3-3-------3-----------3-3--3-------3-3-3-----------|
G|----0---0-0-0-------0-----------0-0--0-------0-0-0-----------|
D|----0---0---0-------0-------0---0-0--0----0--0-0-0---------0-|
A|----2---2-----------2-----------2-2--2-------2-2-------0h2---|
E|----3-----------3---3---3---------3--3--3------3----3--------|

SOLO:(Guitar 2 with first 9 bars of Rhythm Figure 1)
   Em7        G
E|--------------------------------------------------------|
B|-----------3------5-----3-------------------------------|
G|------2/4------------4---------4p2p0--------------------|
D|----------------------------------------0----------0--0-|
A|---------------------------------------------1/2--------|
E|--------------------------------------------------------|

   Em7           G
E|----3/5--3/5-------------------------------------------------|
B|----3/5--3/5--3/5--5/3-p0--3/5--4/2-p0-----------------------|
G|--------------2/4--4/2-p0--2/4--4/2-p0-----4--------------x⁄-|
D|-------------------------------------------5--------------x⁄-|
A|-------------------------------------------------------------|
E|-------------------------------------------------------------|

   Em7       A7sus4
E|-------------------------------------------------------------|
B|----------3-----5----5b(7)r5p3-----3-------------3-5---------|
G|-----2/4-----4------------------4-------2--4b(5)-----4b(6)-2-|
D|-------------------------------------------------------------|
A|-------------------------------------------------------------|
E|-------------------------------------------------------------|

   Em7            A7sus4              G
E|-----------------------------------------------------------3-|
B|----------3-----5------5b(7)-(7)r5--3--5-----------------3-3-|
G|-----2/4-----4---------------------------2--4b(6)r4--2---0-0-|
D|---------------------------------------------------------0-0-|
A|-------------------------------------------------------------|
E|-------------------------------------------------------------|

E|---3--------3-----3--------3---|
B|---3------3-3-----3------3-3-3-|
G|---0------0-0-----0------0-0-0-|
D|---0------0-0-----0------0-0-0-|
A|---2------2-------2------------|
E|---3------3-------3------------|

VERSE:
C                         D/F#
So, so you think you can tell
            Am/E                  G
Heaven from hell, Blue skies from pain.
                    D/F#
Can you tell a green field
                 C
From a cold steel rail, A smile from
 Am                         G
a veil? Do you think you can tell?
                   C
Did they get you to trade,
                D/F#                  Am/E
Your heroes for ghosts, Hot ashes for trees,
               G
Hot air for a cool breeze,
                D/F#              C
Cold comfort for change? Did you exchange
                     Am                          G
A walk on part in the war, For a lead role in a cage?

SOLO:(with scat vocal and Rhythm Figure 1)
   Em7           G
E|--------------------------------/10------/12--10-------------|
B|---/12--12--10/12--12----10/12-------12⁄---------/12--12-12⁄-|
G|-------------------------------------------------------------|
D|-------------------------------------------------------------|
A|-------------------------------------------------------------|
E|-------------------------------------------------------------|

   Em7          G
E|------10⁄--------------------------------------|
B|--/12------/12⁄11/12-12------12⁄----7----------|
G|---------------------------------------7-------|
D|-------------------------------------------7/9-|
A|-----------------------------------------------|
E|-----------------------------------------------|

   Em7      A7sus4
E|--------10--------10-10---------------12---------------------|
B|--10/12-------/12-------15⁄-----12/14-----14⁄--/14-14-14-14⁄-|
G|----------------------------12⁄------------------------------|
D|-------------------------------------------------------------|
A|-------------------------------------------------------------|
E|-------------------------------------------------------------|

   Em7         A7sus4         G
E|---------10------------------------------------12--------/10-|
B|---10/12---------12⁄----------12---------12/14----14⁄10--/10-|
G|------------------------12/14----12/14-----------------------|
D|-------------------------------------------------------------|
A|-------------------------------------------------------------|
E|-------------------------------------------------------------|

VERSE:
C                               D/F#
How I wish, how I wish you were here,
          Am/E
We're just two lost souls simming
            G                  D/F#
in a fish bowl, Year after year,
                               C
Running over the same old ground,
                                 Am
What have we found?  The same old fears,
              G
Wish you were here.

PLAY RHYTHM FIGURE ONE

SOLO:(with Rhythm Figure 1, doubled by scat vocal)
   G         Em7
E|-------------------------------------------------------------|
B|-----3---3--5---------3---3--5-----10/12-10--8-8-------------|
G|-------4--------4---4---4------------------------7--9---9/12-|
D|-------------------------------------------------------------|
A|-------------------------------------------------------------|
E|-------------------------------------------------------------|

   G     Em7
E|----------------------------------------------10--12⁄10-----|
B|-----3--0--3---5---------8---8--10--8--10/12------------/12-|
G|---------------------------9--------------------------------|
D|------------------------------------------------------------|
A|------------------------------------------------------------|
E|------------------------------------------------------------|

   G    Em7
E|------7------------------------10-10-------10-10-------10-10-|
B|--/12---10p8-----/12-/12-10/12-------10/12-------10/12-------|
G|-------------9-7---------------------------------------------|
D|-------------------------------------------------------------|
A|-------------------------------------------------------------|
E|-------------------------------------------------------------|

     A7sus4      Em7
E|---------------12-12--------10-------12-------10-------------|
B|--10/12⁄10-/14--------10/12----12/14----10/12----8-8---8---8-|
G|-----------------------------------------------------9---9---|
D|-------------------------------------------------------------|
A|-------------------------------------------------------------|
E|-------------------------------------------------------------|

     (begin fade)   (fade into sound effects,
   A7sus4    G     with Rhy. Fig 1)
E|------------------|
B|----8---8-10----⁄-|
G|------9-----------|
D|------------------|
A|------------------|
E|------------------|
Em7: 0 0 0 0 2 0G: 3 0 0 0 2 3A7sus4: 0 3 0 2 0 xC: 0 1 0 2 3 xD/F#: 2 3 2 0 0 2Am/E: 0 1 2 2 0 0A: 0 2 2 2 0 xAm: 0 1 2 2 0 x
рокenglishакустикаэлектрогитараматерная

Гитарные бои

Dark blue curved dial, rose gold plated rose replica watches gold plated with the center of uk replica watches the three-pin mixed gold, time instructions clear and intuitive. Both are coated with rolex replica watches SuperLuminova Fluorescent Layer, which emits light in a rolex uk dark environment to facilitate the reading environment.