Соль-Диез

Pink Floyd - Wish You Were Here

Вариант 1Вариант 2
All song using acoustic guitars

 Intro:
     G
     e:----------------|--3---3-3-3--|-------------|--3---3-3-3----|
     B:----------------|--3---3-3-3--|-------------|--3---3-3-3----|
     G:----------------|--0---0-0-0--|-----0-------|--0---0-0-0----|
     D:----------0--2--|--2---2-2-2--|--2-----2--0-|--0---0-0-0----|
     A:-----0/2--------|-------------|-------------|---------------|
     E:--3-------------|-------------|-------------|---------------|

          G

e:----------------|--3---3-3-3--|--------------|--3--3-3-3--------|
B:----------------|--3---3-3-3--|--------------|--3--3-3-3--------|
G:----------------|--0---0-0-0--|--------------|--0--0-0-0--------|
D:----------0--2--|--2---2-2-2--|--2--0--------|--0--0-0-0--------|
A:-----0/2--------|-------------|--------2--0--|------------------|
E:--3-------------|-------------|--------------|------------------|

     G
     e:---------------3--3-3-3-3--3-3-3-3-3--|
     B:---------------3--3-3-3-3--3-3-3-3-3--|
     G:---------------0--0-0-0-0--0-0-0-0-0--|
     D:-------0-------0--0-0-0-0--0-0-0-0-0--|
     A:--0/2----------2--2-2-2-2--2-2-2-2-2--|
     E:----------3----3--3-3-3-3--3-3-3-3-3--|

    


C/G                        D/F#  
So.. so you think you can tell
             Am
Heaven from Hell?
                 G
Blue skies from pain?
                       D
Can you tell a green field
                   C/G
From a cold steel rail?
                Am/E 
A smile from a veil?
                      G
Do you think you can tell...



                     C/G  
Did they get you to trade
                 D/F#
Your heros for ghosts?
                Am
Hot ashes for trees?
                  G  
Hot air for a cool breeze?
                    D
Cold comfort for change?
          C/G
Did you exchange
                      Am 
A walk on part in the war
                      G 
For a lead role in a cage?


C/G                              D/F# 
How I wish, how I wish you were here
            Am                                G
We're just two lost souls swimming in a fish bowl

Year after year.
D/F#
Running over the same old ground.
C/G
What have we found?    
              Am
The same old fears
              G
Wish you were here
G: 3 3 0 0 2 3C/G: 0 1 0 2 3 3D/F#: 2 3 2 0 0 2Am: 0 1 2 2 0 xD: 2 3 2 0 x xA: 0 2 2 2 0 x
рокenglishакустикаэлектрогитараматерная

Гитарные бои

Dark blue curved dial, rose gold plated rose replica watches gold plated with the center of uk replica watches the three-pin mixed gold, time instructions clear and intuitive. Both are coated with rolex replica watches SuperLuminova Fluorescent Layer, which emits light in a rolex uk dark environment to facilitate the reading environment.