Соль-Диез

Nirvana - Smells Like Teen Spirit

INTRO/CHORUS
(Thanks too En-Ming Tham)

e|----------------------------------------|
B|----------------------------------------|
G|-------------3-3-----------------6-6----|
D|-3-3-3-x-x-x-3-3-0-6-6-6-x-x-x-x-6-6-0--|
A|-3-3-3-x-x-x-1-1-0-6-6-6-x-x-x-x-4-4-0--|
E|-1-1-1-x-x-x-----0-4-4-4-x-x-x-x-----0--|

VERSE

e|---1-|
b|-1---|
g|-----|
D|-----|
A|-----|
E|-----|

CHORUS

F Bb G# C#

THEN

e|------------------------------------------|
b|------------------------------------------|
g|-----------------4b-----------------------|
D|---3--2-2-3--4-4-----3--2-2-3--8-8--6-----|
A|---3--2-2-3--4-4-----3--2-2-3--8-8--6-----|
E|---1--0-0-1--2-2-----1--0-0-1--6-6--4-----|

Solo

e|---------------------------------------------------|
b|--1--4--4s6-----4b6b4--2--1--2-1-------------------|
g|-------------1--------------------3--1--3b5b3-1-0--|
D|---------------------------------------------------|
A|---------------------------------------------------|
E|---------------------------------------------------|

e|--------------------------------|
a|--------------------------------|
d|---1-0---1-0---1-0---1p0--------|
g|---------------------------3----|
b|--------------------------------|
E|--------------------------------|

or start higher

e|--------------------------------|
B|--------------------------------|
G|---8-10-8b----------------------|
D|-10-----6--6-5-6-5--------------|
A|------------------8-6-8-8b-6-5--|
E|--------------------------------|


Load up on guns, bring your friends
It's fun to lose, and to pretend
She's overboard, and self-assured
I know I know, a dirty word

 chorus:

Hello, hello, hello, how low?
Hello, hello, hello, how low?
Hello, hello, hello, how low?
Hello, hello, hello

With the lights out it's less dangerous
Here we are now, entertain us
I feel stupid and contagious
Here we are now, entertain us.
	
A mulatto, 
An albino, 
A mosquito, 
My libido, 
Yeah!

I'm worse at what I do best,
and for this gift I feel blessed.
I met a group that's always been
And always will until the end.

 	chorus, solo

And I forget, just what I taste
Oh yeah, I guess it makes me smile
I found it hard. . .It's hard to find
Oh well, whatever, nevermind

 	chorus.
F: 1 1 2 3 3 1Bb: 0 2 2 2 0 0G#: 4 1 1 1 3 4C#: 1 2 1 3 4 xA: 0 2 2 2 0 x
рокenglishакустикапростаялюбовьэлектрогитаразастольнаяпесни-из-киноприкольные-песнисложнаятабулатура

Гитарные бои

Dark blue curved dial, rose gold plated rose replica watches gold plated with the center of uk replica watches the three-pin mixed gold, time instructions clear and intuitive. Both are coated with rolex replica watches SuperLuminova Fluorescent Layer, which emits light in a rolex uk dark environment to facilitate the reading environment.