Соль-Диез

Nirvana - Blew

 Проигрыш / Версия  / Outro
E|---------------------------|
B|---------------------------|
G|---------------------------|
D|---------------------------|
A|-0--3--5--6--6--5--3--0--5-|
E|-0--3--5--6--6--5--3--0--5-|

 Версия  Riff
E|----------------------------------|----------------6-|
B|----6--8--9--9--9--8--6--8--8--6--|--8p--6Н--8--8----|
G|-7--------------------------------|------------------|
D|----------------------------------|------------------|
A|----------------------------------|------------------|
E|----------------------------------|------------------|
  Oh if you...

 Припев:
E|----------------------------------------------------|
B|----------------------------------------------------|
G|----------------------------------------------------|
D|----------------------------------------------------|
A|-3--5-|--5--5--3-|--3--3--5-|--5--5--3--6-|-/7-...--|
E|-3--5-|--5--5--3-|--3--3--5-|--5--5--3--6-|-/7-...--|
Is There  another...                       ...Shame!!!
рокenglish
Dark blue curved dial, rose gold plated rose replica watches gold plated with the center of uk replica watches the three-pin mixed gold, time instructions clear and intuitive. Both are coated with rolex replica watches SuperLuminova Fluorescent Layer, which emits light in a rolex uk dark environment to facilitate the reading environment.