Соль-Диез

Muddy Waters - Same Thing

Main Riff:
Repeat 8x during verse, 4x during chorus
B
|-----------------------------------------------------|
|-------9---7-----------------------------------------|
|-------9---7-----------------------------------------|
|-------9---7-----------------------------------------|
|------------------7-8-9------------------------------|
|-7-------------7-------------------------------------|

F# E D B
|-----------------------------------------------------|
|-11~~~--let ring--------9------------7---------------|
|-11~~~------------------9------------7---------------|
|-11~~~------------------9------------7---------------|
|-9~~~~------------------7------------5---------------|
|-----------------------------------------------------|
Repeat 2x, then repeat progression
B
|-----------------------------------------------------|
|-------9---7-----------------------------------------|
|-------9---7-----------------------------------------|
|-------9---7-----------------------------------------|
|------------------7-8-9------------------------------|
|-7-------------7---------7---------------------------|

Lyrics:

B
What makes men go crazy when a woman wear her dress so tight?
B
What makes men go crazy when a woman wear her dress so tight?
F# E D B
Well its the Same ol' thing that makes tomcats fight all night

Verse 2:
B
Why do so many men try to run a big legged woman down?
B
Why do so many men try to run a big legged woman down?
F# E D B
Well its the same ol' thing that makes a bulldog hump a hound.

CHORUS:
B
Well its the same ol' thing;
B
Yeah its the same ol' thing;
F#
Tell me who's to blame;
E D B
The whole worlds fightin' bout the same ol' thing...
F#: 2 2 3 4 4 2E: 0 0 1 2 2 0D: 2 3 2 0 x xB: 2 4 4 4 2 2
Dark blue curved dial, rose gold plated rose replica watches gold plated with the center of uk replica watches the three-pin mixed gold, time instructions clear and intuitive. Both are coated with rolex replica watches SuperLuminova Fluorescent Layer, which emits light in a rolex uk dark environment to facilitate the reading environment.