Соль-Диез

Metallica - Am I Evil

Gtr 1 : Distorted

E||---||----------------|----------------|---------------------|
B||-4-||----------------|----------------|---------------------|
G||---||-9----------7-9-|-10----------12-|-9---9-9-9-9---9-9-9-|
D||-4-||-9----------7-9-|-10----------12-|-9---9-9-9-9---9-9-9-|
A||---||-7----------5-7-|-8-----------10-|-7---7-7-7-7---7-7-7-|
E||---||----------------|----------------|---------------------|

E|---------------------|-----------------|---------------------|
B|---------------------|-----------------|---------------------|
G|-9-9-9-9-7-7-7-7-7-7-|-9-9-9-9-9-9-9-9-|-9-9-9-9-7-7-7-7-7-7-|
D|-9-9-9-9-7-7-7-7-7-7-|-9-9-9-9-9-9-9-9-|-9-9-9-9-7-7-7-7-7-7-|
A|-7-7-7-7-5-5-5-5-5-5-|-7-7-7-7-7-7-7-7-|-7-7-7-7-5-5-5-5-5-5-|
E|---------------------|-----------------|---------------------|

Gtr 2 : Distorted
( Trem Strum )
E|----|
B|----|
G|----|
D|-14-|
A|-14-|
E|-12-|

Gtr 1 doubles Gtr 2

E|---|-------------|---|
B|---|-------------|---|
G|*--|-------------|---|
D|-2-|-9-9-9-9-9-9-|-8-|
A|*2-|-9-9-9-9-9-9-|-8-|
E|-0-|-7-7-7-7-7-7-|-6-|

E|-------------|---|-------------|
B|-------------|---|-------------|
G|------------*|---|-------------|
D|-3-3-3-3-3-3-|-2-|-9-9-9-9-9-9-|
A|-3-3-3-3-3-3*|-2-|-9-9-9-9-9-9-|
E|-1-1-1-1-1-1-|-0-|-7-7-7-7-7-7-|

E|---|-------------------|---|
B|---|-------------------|---|
G|---|-10-10-10-10-10-10-|-9-|
D|-8-|-10-10-10-10-10-10-|-9-|
A|-8-|-8--8--8--8--8--8--|-7-|
E|-6-|-------------------|---|

E|-------------|---|-------------|
B|-------------|---|-------------|
G|-------------|---|-------------|
D|-9-9-9-9-9-9-|-8-|-3-3-3-3-3-3-|
A|-9-9-9-9-9-9-|-8-|-3-3-3-3-3-3-|
E|-7-7-7-7-7-7-|-6-|-1-1-1-1-1-1-|

E|---|-------------|----------------------|
B|---|-------------|----------------------|
G|---|-------------|*---------------------|
D|-2-|-7-7-7-7-7-7-|-/9---9-9-9-9---9-9-9-|
A|-2-|-5-5-5-5-5-5-|*/7---7-7-7-7---7-7-7-|
E|-0-|-------------|----------------------|

Gtr 1 : Grad rit.
	(Repeat 3 times)
E|-----------------------|---------------|----------------|
B|-----------------------|---------------|----------------|
G|----------------------*|---------------|-------------10-|
D|-9---9-9-9-7-7-7-7-7-7-|---------------|-----9---8------|
A|-7---7-7-7-5-5-5-5-5-5*|-------------8-|-7--------------|
E|-----------------------|-0---7---6-----|----------------|

E|----------------------------|
B|----------------------------|
G|-9---10---/12---/14-----/16-|
D|----------------------------|
A|----------------------------|
E|----------------------------|

Gtr 2 : Intro solo. (See comments at end)
E|---------------------------------|
B|-058-058-058-058-058-058-058-058-|
G|---------------------------------|
D|---------------------------------|
A|---------------------------------|
E|---------------------------------|

E|---------------------------------|
B|-047-047-047-047-047-047-047-047-|
G|---------------------------------|
D|---------------------------------|
A|---------------------------------|
E|---------------------------------|

E|-----------------------------------|
B|-058-058-058-058-0710-0710-058-058-|
G|-----------------------------------|
D|-----------------------------------|
A|-----------------------------------|
E|-----------------------------------|

	(Hold last note..)
E|-----------------------------|
B|-047-047-047-047-047-047-047-|
G|-----------------------------|
D|-----------------------------|
A|-----------------------------|
E|-----------------------------|

E|-----------------------|
B|-----------------------|
G|-----------------------|
D|-----5-----------------|
A|-5-----------5-------7-|
E|---------5-------7-----|

"One, Two"		(Repeat Main Riff 8 times before verse)

Main Riff :
E|------------------------------|
B|------------------------------|
G|*----------------------------*|
D|---------------2---------3--2-|
A|*2-2-2-2-5-2-2-0-2-2-2---1--0*|
E|-0-0-0-0-3-0-0---0-0-0--------|

(Main Riff with verse 1)

Verse 1 : (Lyrics)

My mother was a witch, she was burned alive.
Thankless little bitch, for the tears i`ve cried.
Take her down now, don`t want to see her face.
All blistered and burned, can`t hide my disgrace.

Pre-Chorus riff :
E|------------------------------|
B|------------------------------|
G|*----------------------------*|
D|---------7-----9---------10-9-|
A|*7-7-7-7-5-7-7-7-7-7-7---8--7*|
E|-5-5-5-5---5-5---5-5-5--------|

(Pre-Chorus riff x 4 with Pre-Chorus)

Pre-Chorus : (Lyrics)

Twenty-seven, every one is nice,
Gotta see `em, make `em pay the price,
See the bodies out on the ice,
Take my time.......

(Main Riff x 4 with Chorus)

Chorus : (Lyrics)

Am I Evil?
Yes I am,
Am I Evil?
I am that, yes I am....

*Main Riff x 2*

(Main Riff x 8 with verse 2)

Verse 2 : (Lyrics)

As i watched my mother die, I lost my head,
Revenge now I sought, to break with my bread,
Taking no chances, you come with me,
I split you to the bone, help set you free.

(Pre-chorus riff x 4 with pre-chorus)

(Main Riff x 4 with chorus)

Bridge :

E|------------------|------------------------------|
B|------------------|------------------------------|
G|*9-----7-----5---*|------------------------------|
D|-9-----7-----5----|---------------2---------3--2-|
A|*7-----5-----3---*|-2-2-2-2-5-2-2-0-2-2-2---1--0*|
E|------------------|-0-0-0-0-3-0-0---0-0-0--------|

               (Repeat 3 times)
E|------------------|-----------------|----|
B|------------------|-----------------|----|
G|*9-----7-----5---*|-9-----11-----12-|----|
D|-9-----7-----5----|-9-----11-----12-|----|
A|*7-----5-----3---*|-7-----9------10-|-/7-|
E|------------------|-----------------|----|

Double Time feel :

Fast Riff 1:
E|---------------|------------|---------------|-------------|
B|---------------|------------|---------------|-------------|
G|*--------------|------------|---------------|------------*|
D|---------------|----------7-|---------------|--------5----|
A|*7-7777-7-7777-|-7-7777-5-5-|-7-7777-7-7777-|-7-7777-3-5-*|
E|-5-5555-5-5555-|-5-5555-3---|-5-5555-5-5555-|-5-5555---3--|

Fast Riff 2 : (Note : Lyrics)
E|--------------|----------------|--------------|-----------|
B|--------------|----------------|--------------|-----------|
G|--------------|----------------|*-------------|-----------|
D|--------------|----------------|--------------|----------7|
A|-7-7777-7-7777|----------------|*2-2222-2-2222|-2-2222-2-5|
E|-5-5555-5-5555|-555-555-555-532|-0-0000-0-0000|-0-0000-0--|

E|---------------|---------------|
B|---------------|---------------|
G|---------------|--------------*| Repeat whole sequence again.
D|---------------|----------7-7--|
A|-2-2222-2-2222-|-2-2222-2-5-5-*|
E|-0-0000-0-0000-|-0-0000-0------|

(With Fast Riff 2 [First repeat])

Lyrics :

(With Fast Riff 2 [Second repeat])

Lyrics :

*Then Fast Riff 1 x 1*
E|---|-----------|
B|---|-----------|
G|---|-----------|
D|-2-|-5-------7-|
A|-2-|-5-------7-|
E|-0-|-3-------5-|

GUITAR SOLO:

For the solo, the rhythm follows the following `feel`:

    X       X         X       X
|-X--XXXX-X-XXXX--|-X--XXXX-X-XXXX--|

Chord changes are noted above tab lines, and are 2 or 3
fingered power chords, depending on what you feel like. For the
`XX` notes, strike the full chord, on the others just play the
lowest note (Usually the E string)

   B5
E|-----------7-------|----------------11-12-|
B|------------10-7-7/|/12-----------12------|
G|-9^^^^^^^^^--------|----------------------|
D|-------------------|----------------------|
A|-------------------|----------------------|
E|-------------------|----------------------|

E|-11-12-11---11-12-14-14-14-12-11-12-11----|--------7-|
B|---------12----------------------------12-|-10--/7---|
G|------------------------------------------|----------|
D|------------------------------------------|----------|
A|------------------------------------------|----------|
E|------------------------------------------|----------|

E|-10-9-7-7-9-7----7------|------------------------|
B|--------------10---10-7-|-10-7---7---------------|
G|------------------------|------9---9-7-9-7---7-7-|
D|------------------------|------------------9-----|
A|------------------------|------------------------|
E|------------------------|------------------------|

E|-----7------------------|-----7------------------|
B|-----7-10-7---7---------|-----7-10-7---7---------|
G|-9^^--------9---9-7-7-7-|-9^^--------9---9-7-7-7-|
D|------------------------|------------------------|
A|------------------------|------------------------|
E|------------------------|------------------------|

 (Full)
E|-----7-----------------------|-/19--/20---/22---/24-|
B|-----7-10-7---7--------------|----------------------|
G|-9^^--------9---9-7-7------7-|----------------------|
D|-----------------------------|----------------------|
A|-----------------------------|----------------------|
E|-----------------------------|----------------------|

   E5
E|-15-14-12----12-14-15-14-12----12-14-|
B|----------15----------------15-------|
G|-------------------------------------|
D|-------------------------------------|
A|-------------------------------------|
E|-------------------------------------|

E|-15-14-12----12-14-15-14-12----12-14-|
B|----------15----------------15-------|
G|-------------------------------------|
D|-------------------------------------|
A|-------------------------------------|
E|-------------------------------------|

E|-15---14---12--------12------|-------------------------|
B|----------------15--------15-|-14---12---14------------|
G|-----------------------------|----------------12======-|
D|-----------------------------|-------------------------|
A|-----------------------------|-------------------------|
E|-----------------------------|-------------------------|

   B5
  (Full)
E|------7-0-0-9-0-0-10-0-0-|-12-0-0-10-0-0-9-0-0-7-0-0-|
B|----7--------------------|---------------------------|
G|-9^----------------------|---------------------------|
D|-------------------------|---------------------------|
A|-------------------------|---------------------------|
E|-------------------------|---------------------------|

E|-10---9---7--------7------|---------------------|
B|--------------10-------10-|-9---7---9-----------|
G|--------------------------|-------------7======-|
D|--------------------------|---------------------|
A|--------------------------|---------------------|
E|--------------------------|---------------------|

E|-----------------|-----------------|
B|-047-047-047-047-|-058-058-058-058-|
G|-----------------|-----------------|
D|-----------------|-----------------|
A|-----------------|-----------------|
E|-----------------|-----------------|

E|-----------------|-047-047-047-047-|
B|-047-047-047-047-|-----------------|
G|-----------------|-----------------|
D|-----------------|-----------------|
A|-----------------|-----------------|
E|-----------------|-----------------|

                                       A5
E|-058-058-058-058-|-047-047-047-047-|-1285-1285-1285-1285-|
B|-----------------|-----------------|---------------------|
G|-----------------|-----------------|*-------------------*|
D|-----------------|-----------------|---------------------|
A|-----------------|-----------------|*-------------------*|
E|-----------------|-----------------|---------------------|

   F5                    A#5
E|-1385-1385-1385-1385-|-1396-1396-1396-1396-|
B|---------------------|---------------------|
G|*-------------------*|*-------------------*|
D|---------------------|---------------------|
A|*-------------------*|*-------------------*|
E|---------------------|---------------------|

 F#5
E|-1496-1496-1496-1496-|
B|---------------------|
G|---------------------|
D|---------------------|
A|---------------------|
E|---------------------|

   B5
E|-14107-14107-14107-14107-|-047-----047-----|-047-----047-----|
B|-------------------------|-----047-----047-|-----047-----047-|
G|*-----------------------*|-----------------|-----------------|
D|-------------------------|-----------------|-----------------|
A|*-----------------------*|-----------------|-----------------|
E|-------------------------|-----------------|-----------------|

E|-----------------|     E|-----------------|
B|-047-----047-----|     B|-----------------|
G|-----047-----047-| x2  G|-047-----047-----| x2
D|-----------------|     D|-----047-----047-|
A|-----------------|     A|-----------------|
E|-----------------|     E|-----------------|

E|-----------------|-------------------|
B|-----------------|----------------12-|
G|-----------------|-------------/14---|
D|-047-----047-----|-------------------|
A|-----047-----047-|-------------------|
E|-----------------|-7-----------------|

  E5
E|-------------------------------------|
B|-1514-0-0-1715-0-0-1514-0-0-1715-0-0-|
G|-------------------------------------|
D|-------------------------------------|
A|-------------------------------------|
E|-------------------------------------|

E|-------------------------------------|
B|-1514-0-0-1715-0-0-1514-0-0-1715-0-0-|
G|-------------------------------------|
D|-------------------------------------|
A|-------------------------------------|
E|-------------------------------------|

E|---------------------------------|
B|-1514-0-1412-0-1210-0-109-0-97-0-|
G|---------------------------------|
D|---------------------------------|
A|---------------------------------|
E|---------------------------------|

               B5
E|-----------|----------------------|------------10^====|
B|-7---------|-10^------107---7-----|-------------------|
G|-7-9-7---7-|--------------9---9-7-|-9-7---7-----------|
D|-----------|----------------------|-----9-------------|
A|-----------|----------------------|-------------------|
E|-----------|----------------------|-------------------|

(END SOLO)
E|-9----12-------------------|-----------------|
B|-----------10-12-10-8-10-8-|-7-8-7-5-6-5--3=-|
G|---------------------------|-----------------|
D|---------------------------|-----------------|
A|---------------------------|-----------------|
E|---------------------------|-----------------|

*Fast Riff 1 x 2 ( Note : Only repeat the first section )*

On fourth repeat, Gtr 2 plays:

E|------------------|
B|------------------|
G|------------------|
D|-/777-777-777-75--|
A|----------------7-|
E|------------------|

*Fast Riff 2 x 4*
*Fast Riff 1 x 4*

(Triplet feel - not strict time)

E|-------------|----------------------|-------|
B|-------------|----------------------|-------|
G|-------------|---------------------*|-------|
D|-----9---7-7-|-7-7------------------|-7-----|
A|-----7---5-5-|-5-5---------5-7-5---*|-5---7-|
E|-0-0---------|---------5-7-------7--|-----5-|

              (Repeat 6 times)
E|----------------------------|---------------|
B|----------------------------|---------------|
G|*--------------------------*|---------------|
D|---------------2--------3-2-|-------------2-|
A|*2-2-2-2-5-2-2-0-2-2-2--1-0*|---------5---2-|
E|-0-0-0-0-3-0-0---0-0-0------|-5---5---3---0-|
Am: 0 1 2 2 0 xB5: 2 0 x x x xE: 0 0 1 2 2 0E5: 0 x x x 2 0A5: 0 x x 7 7 5F5: 1 x x 3 3 1A#5: 1 2 2 3 0 xF#5: 1 2 2 3 0 xB: 2 4 4 4 2 2A: 0 2 2 2 0 x
рок
Dark blue curved dial, rose gold plated rose replica watches gold plated with the center of uk replica watches the three-pin mixed gold, time instructions clear and intuitive. Both are coated with rolex replica watches SuperLuminova Fluorescent Layer, which emits light in a rolex uk dark environment to facilitate the reading environment.