Соль-Диез

Lumen (Люмен) - Гореть

Вариант 1Вариант 2
E||------------------------------|------------------------------|
 B||------------------------------|------------------------------|
 G||---------12--------9----------|--10--------9--------9--------|
 D||-----10---------10--------10--|--------10-------10-----10----|
 A||--0---------0--------0--------|-----0--------0---------------|
 E||------------------------------|------------------------------|


 ---------------------------------|------------------------------|
 ---------------------------------|------------------------------|
 ----------12---------9-----------|--10---------9---------9------|
 ------10---------10--------10----|---------10--------10-----10--|
 --10----------10---------10------|------10---------10-----------|
 ---------------------------------|------------------------------|


 ------------------------------|---------------------------------|
 ------------------------------|---------------------------------|
 ---------12--------9----------|--10--------9--------9-----------|
 -----10--------10-------10----|--------10-------10-----10-------|
 --8----------8---------8------|------8---------8----------------|
 ------------------------------|---------------------------------|


 --------------------------|-------------------------------------|
 --------------------------|-------------------------------------|
 --------0-------0---------|-------0-------0---------------------|
 -----7-------7-------7----|----7-------7-------7----------------|
 --5-------5-------5-------|--5-------5-------5------------------|
 --------------------------|-------------------------------------|

 2 раза


 E||-----------------------------|-----------------------------|
 B||-----------------------------|-----------------------------|
 G||---------0--------0----------|--------0--------0-----------|
 D||-----10-------10-------10----|----10-------10-------10-----|
 A||--0--------0--------0--------|--0--------0--------0--------|
 E||-----------------------------|-----------------------------|


 -----------------------------|-----------------------------|
 -----------------------------|-----------------------------|
 --------0--------0-----------|--------0--------0-----------|
 -----9--------9--------9-----|-----9--------9--------9-----|
 --10-------10-------10-------|--10-------10-------10-------|
 -----------------------------|-----------------------------|


 -----------------------------|-----------------------------|
 -----------------------------|-----------------------------|
 --------0--------0-----------|--------0--------0-----------|
 ----10-------10-------10-----|----10-------10-------10-----|
 --8--------8--------8--------|--8--------8--------8--------|
 -----------------------------|-----------------------------|


 --------------------------|--------------------------|
 --------------------------|--------------------------|
 -------0-------0----------|-------0-------0----------|
 ----7-------7-------7-----|----7-------7-------7-----|
 --5-------5-------5-------|--5-------5-------5-------|
 --------------------------|--------------------------|

 3 раза


 Припев Dm Am C G
Гитару нужно настроить на полтона ниже
рокакустикапростая
Dark blue curved dial, rose gold plated rose replica watches gold plated with the center of uk replica watches the three-pin mixed gold, time instructions clear and intuitive. Both are coated with rolex replica watches SuperLuminova Fluorescent Layer, which emits light in a rolex uk dark environment to facilitate the reading environment.