Соль-Диез

Limp Bizkit - Break Stuff

Вариант 1Вариант 2
Intro

C#)------------------------------------
G#8)------------------------------------
E )------------------------------------
B )------4-/-3------------4-/-3--------
F#)------4-/-3------------4-/-3--------
C#)----0-2--------------0-2------------

Ok, the trick here is to quickly play open E (C#)
then you gotta play the 2-4-4 part. Then after you
play that, take your finger off the E string (C#)
and slide your finger on the A string (F#) up to
the third fret. Get all that? Quite easy.

Verse
C#)------------------------------------
G#8)------------------------------------
E )------------------------------------
B )------4-/-3------------4-/-3--------
F#)------4-/-3------------4-/-3--------
C#)------2----------------2------------

Repeat the verse until the chorus kicks in.

Chorus

C#)-----------------------------
G#8)-----------------------------
E )-----------------------------
B )----4b-(4)----4b-(4)----x-x-x
F#)----4b-(4)----4b-(4)----x-x-x
C#)----2b-(2)----2b-(2)----x-x-x

Ok, to play this part you have to play the
2-4-4 and then bend it down then bring it back
to its original position. Do it twice then
palm mute the open strings three times. Play
this riff for 6 times before going to the after
chorus riff.

C#)-----------------------------
G#8)-----------------------------
E )-----------------------------
B )--4---4b--/--3---------------
F#)--4---4b--/--3---------------
C#)--2---2b--/--1---------------

After this play the Chorus and After Chorus Riff
scheme again. The second time around go to the verse.

Verse
C#)------------------------------------
G#8)------------------------------------
E )------------------------------------
B )------4-/-3------------4-/-3--------
F#)------4-/-3------------4-/-3--------
C#)------2----------------2------------

After this comes the Bridge.

Bridge
C#)--------------------------------
G#8)--------------------------------
E )--------------------------------
B )--------------------------------
F#)--3---------3--------3----------
C#)------2---------2--------2------
p.m . . . . .

The timing here is tricky it can sound awful if youre off.
Then somewhere along the Bridge at around 1:32 another
guitar is palm muting open E and A. Then at like 1:43 DJ
Lethal comes in. I'm not so sure how to do this on the
guitar, it can probably done, but you'll need a pedal with
effects like that. Ok just repeat the bridge over and over
again until about 2:00.

Bridge 2
C#)--------------
G#8)--------------
E )--------------
B )--5-----------
F#)--3---4----4-4
C#)------2----2-2

Repeat this until the main verse / intro riff comes
for a final time. This is a little hard and you have
to be quick going from the first chord to the next


C#)--------------
G#8)--------------
E )--------------
B )------4-/-3---
F#)------4-/-3---
C#)----0-2-------

Now switch to the chorus for the rest of the song.


Chorus

C#)-----------------------------
G#8)-----------------------------
E )-----------------------------
B )----4b-(4)----4b-(4)----x-x-x
F#)----4b-(4)----4b-(4)----x-x-x
C#)----2b-(2)----2b-(2)----x-x-x

Repeat this until the final riff.

C#)-----------------------------
G#8)-----------------------------
E )-----------------------------
B )--4---4b--/--3---------------
F#)--4---4b--/--3---------------
C#)--2---2b--/--1---------------
C#: 1 2 1 3 4 xG#(8): 8 9 8 10 11 8F#: 2 2 3 4 4 2E: 0 0 1 2 2 0A: 0 2 2 2 0 x
Dark blue curved dial, rose gold plated rose replica watches gold plated with the center of uk replica watches the three-pin mixed gold, time instructions clear and intuitive. Both are coated with rolex replica watches SuperLuminova Fluorescent Layer, which emits light in a rolex uk dark environment to facilitate the reading environment.