Соль-Диез

Frank Zappa - Dont Eat The Yellow Snow

Main Riff
G-7-7----------------
D-----9-7---0-0---7-9
A---------7-----7----
E--------------------

Other Riff
(for this riff, you can play either version below...)
G---------- G----------
D-0-0------ or D-0-0------
A-----3-4-5 A----------
E---------- E-----7-8-9


Main x4
Other x2
Main x2
Other x2
Main x2
Other x2
Main x4
Other x2
Main x8
Other x2
Main x10
Dark blue curved dial, rose gold plated rose replica watches gold plated with the center of uk replica watches the three-pin mixed gold, time instructions clear and intuitive. Both are coated with rolex replica watches SuperLuminova Fluorescent Layer, which emits light in a rolex uk dark environment to facilitate the reading environment.