Соль-Диез

Frank Zappa - Directly From My Heart To You

Riff 1:
E---3---------------------|
A---------35--------------|
D--------------3--5--3----|
G-------------------------|

Repeat 4 times then play:

Riff 2
E------------------------|
A---3--------------------|
D----------35------------|
G----------------3--5--3-|

Repeat this 2 times then go back to riff 1 and 2 times, then play

Riff 3
E------------------------|
A---5--------------------|
D----------57------------|
G----------------5--7--5-|

then play riff 1 2 times
Dark blue curved dial, rose gold plated rose replica watches gold plated with the center of uk replica watches the three-pin mixed gold, time instructions clear and intuitive. Both are coated with rolex replica watches SuperLuminova Fluorescent Layer, which emits light in a rolex uk dark environment to facilitate the reading environment.