Соль-Диез

Black Sabbath - Black Sabbath

Вариант 1Вариант 2
G G G G
-----------------------------------------------------------------------------
-----------------------------------------------------------------------------
-----------------------------------------------------------------------------
----5-----------------------5---------------5--------------------------5-----
-5----(4h5-tr~~~~)(10⁄7)-5-----4~(/10⁄7)-5-----(4h5-tr~~~~)-(/10⁄7)-5------4-
-3-----------------------3---------------3--------------------------3--------

[mf]
----------------------------------------------------
----------------------------------------------------
----------------------------------------------------
-----------5--------------------------5-------------
--------------------4---------------------------4---
-3----------------------------3---------------------
{......................pm........................}

----------------------------------------------------
----------------------------------------------------
----------------------------------------------------
-----------5--------------------------5-------------
--------------------4---------------------------4---
-3----------------------------3---------------------
{......................pm........................}
What is this that stands before me?

----------------------------------------------------
----------------------------------------------------
----------------------------------------------------
-----------5--------------------------5-------------
--------------------4---------------------------4---
-3----------------------------3---------------------
{......................pm........................}
Figure in black, which points at me.

----------------------------------------------------
----------------------------------------------------
----------------------------------------------------
-----------5--------------------------5-------------
--------------------4---------------------------4---
-3----------------------------3---------------------
{......................pm........................}
Turn 'round quick, and start to run.

----------------------------------------------------
----------------------------------------------------
----------------------------------------------------
-----------5--------------------------5-------------
--------------------4---------------------------4---
-3----------------------------3---------------------
{......................pm........................}
Find out I'm the chosen one. Oh No!!

G G G G
-----------------------------------------------------------------------------
-----------------------------------------------------------------------------
-----------------------------------------------------------------------------
----5-----------------------5---------------5--------------------------5-----
-5----(4h5-tr~~~~)(10⁄7)-5-----4~(/10⁄7)-5-----(4h5-tr~~~~)-(/10⁄7)-5------4-
-3-----------------------3---------------3--------------------------3--------


----------------------------------------------------
----------------------------------------------------
----------------------------------------------------
-----------5--------------------------5-------------
--------------------4---------------------------4---
-3----------------------------3---------------------
{......................pm........................}

----------------------------------------------------
----------------------------------------------------
----------------------------------------------------
-----------5--------------------------5-------------
--------------------4---------------------------4---
-3----------------------------3---------------------
{......................pm........................}
Big black shape with eyes of fire.

----------------------------------------------------
----------------------------------------------------
----------------------------------------------------
-----------5--------------------------5-------------
--------------------4---------------------------4---
-3----------------------------3---------------------
{......................pm........................}
Telling people their desire.

----------------------------------------------------
----------------------------------------------------
----------------------------------------------------
-----------5--------------------------5-------------
--------------------4---------------------------4---
-3----------------------------3---------------------
{......................pm........................}
Satan sitting there, he's smiling.

----------------------------------------------------
----------------------------------------------------
----------------------------------------------------
-----------5--------------------------5-------------
--------------------4---------------------------4---
-3----------------------------3---------------------
{......................pm........................}
Watches those flames, get higher and higher.
Oh no, no...please God help me!

G G G G
-----------------------------------------------------------------------------
-----------------------------------------------------------------------------
-----------------------------------------------------------------------------
----5-----------------------5---------------5--------------------------5-----
-5----(4h5-tr~~~~)(10⁄7)-5-----4~(/10⁄7)-5-----(4h5-tr~~~~)-(/10⁄7)-5------4-
-3-----------------------3---------------3--------------------------3--------

G
-------------------
-------------------
-------------------
-------------------
-5-----------------
-3-----------------
{8 count hold}

BRIDGE {122 beats/min feel}

----------------------------------------------
----------------------------------------------
----------------------------------------------
----------------------------------------------
--------3-5-6-3-5--3-5--------3-5-6-3-5--3-5--
-3-3-3-5---------6-----3-3-3-5---------6------
{....................pm.....................}

----------------------------------------------
----------------------------------------------
----------------------------------------------
----------------------------------------------
--------3-5-6-3-5--3-5--------3-5-6-3-5--3-5--
-3-3-3-5---------6-----3-3-3-5---------6------
{....................pm.....................}

----------------------------------------------
----------------------------------------------
----------------------------------------------
----------------------------------------------
--------3-5-6-3-5--3-5--------3-5-6-3-5--3-5--
-3-3-3-5---------6-----3-3-3-5---------6------
{....................pm.....................}
Is this the end, my friend?

----------------------------------------------
----------------------------------------------
----------------------------------------------
----------------------------------------------
--------3-5-6-3-5--3-5--------3-5-6-3-5--3-5--
-3-3-3-5---------6-----3-3-3-5---------6------
{....................pm.....................}

----------------------------------------------
----------------------------------------------
----------------------------------------------
----------------------------------------------
--------3-5-6-3-5--3-5--------3-5-6-3-5--3-5--
-3-3-3-5---------6-----3-3-3-5---------6------
{....................pm.....................}
Satan's comin' 'round the bend.

----------------------------------------------
----------------------------------------------
----------------------------------------------
----------------------------------------------
--------3-5-6-3-5--3-5--------3-5-6-3-5--3-5--
-3-3-3-5---------6-----3-3-3-5---------6------
{....................pm.....................}

----------------------------------------------
----------------------------------------------
----------------------------------------------
----------------------------------------------
--------3-5-6-3-5--3-5--------3-5-6-3-5--3-5--
-3-3-3-5---------6-----3-3-3-5---------6------
{....................pm.....................}
People runnin' 'caues they're scared.

----------------------------------------------
----------------------------------------------
----------------------------------------------
----------------------------------------------
--------3-5-6-3-5--3-5--------3-5-6-3-5--3-5--
-3-3-3-5---------6-----3-3-3-5---------6------
{....................pm.....................}

----------------------------------------------
----------------------------------------------
----------------------------------------------
----------------------------------------------
--------3-5-6-3-5--3-5--------3-5-6-3-5--3-5--
-3-3-3-5---------6-----3-3-3-5---------6------
{....................pm.....................}
You people that are goin' beware!

----------------------------------------------
----------------------------------------------
----------------------------------------------
----------------------------------------------
--------3-5-6-3-5--3-5--------3-5-6-3-5--3-5--
-3-3-3-5---------6-----3-3-3-5---------6------
{....................pm.....................}
No! No! Please, no!

G Gm73G Gm7
---------------------------------------------------------------
----------------3~~-----------------------------3~~------------
----------------3~~-----------------------------3~~------------
----------------3~~-----------------------------3~~------------
-5-------------------------------5-----------------------------
-3-------------------------------3-----------------------------
{Guitar 1}

G Gm73G Gm7
---------------------------------------------------------------
----------------3~~-----------------------------3~~------------
----------------3~~-----------------------------3~~------------
----------------3~~-----------------------------3~~------------
-5-------------------------------5-----------------------------
-3-------------------------------3-----------------------------
{Guitar 2}
{..................... wah........................}

----------------------------------------------------3----------
--------------------------------3-----3-------3-----3----3-----
---------------------------3~~--5^(7)-5^(7)---5^(7)-----5^(7)--
-(3/)5p3-5~~--5-5-3~~~--3h5------------------------------------
---------------------------------------------------------------
---------------------------------------------------------------

G Gm73G Gm7
---------------------------------------------------------------
----------------3~~-----------------------------3~~------------
----------------3~~-----------------------------3~~------------
----------------3~~-----------------------------3~~------------
-5-------------------------------5-----------------------------
-3-------------------------------3-----------------------------
{Guitar 2}
{..................... wah........................}

-----------------------------------------------------------------------
--------------------------------------15-15-17^(19)--15-(17^19-19`17)--
-6--------8-------10------(14/)17^(19)---------------------------------
-8^(10)--10^(12)--12^(14)----------------------------------------------
-----------------------------------------------------------------------
-----------------------------------------------------------------------
(Guitar 1)

G Gm73G Gm7
---------------------------------------------------------------
----------------3~~-----------------------------3~~------------
----------------3~~-----------------------------3~~------------
----------------3~~-----------------------------3~~------------
-5-------------------------------5-----------------------------
-3-------------------------------3-----------------------------
{Guitar 2}
{..................... wah........................}

-15-(^18{20-20}`18)-15-15h18p15h18p15-(^18{20})-18p15------------------
------------------------------------------------------18-18^(20-20)-15-
-----------------------------------------------------------------------
-----------------------------------------------------------------------
-----------------------------------------------------------------------
-----------------------------------------------------------------------
(Guitar 1)

G Gm73G Gm7
---------------------------------------------------------------
----------------3~~-----------------------------3~~------------
----------------3~~-----------------------------3~~------------
----------------3~~-----------------------------3~~------------
-5-------------------------------5-----------------------------
-3-------------------------------3-----------------------------
{Guitar 2}
{..................... wah........................}

-------------------------------------------------------------------
-------15-------15-------15-------15-------15-------15-------15~---
-17^(19)--17^(19)--17^(19)--17^(19)--17^(19)--17^(19)--17^(19)-----
-------------------------------------------------------------------
-------------------------------------------------------------------
-------------------------------------------------------------------
(Guitar 1)

G Gm73G Gm7
---------------------------------------------------------------
----------------3~~-----------------------------3~~------------
----------------3~~-----------------------------3~~------------
----------------3~~-----------------------------3~~------------
-5-------------------------------5-----------------------------
-3-------------------------------3-----------------------------
{Guitar 2}
{..................... wah........................}

-----------------------------------------(^18{20})-15h18p15-(^18{20})-
------15-------15--18^(20)`18-18^(20)`18------------------------------
17^(19)--17^(19)------------------------------------------------------
----------------------------------------------------------------------
----------------------------------------------------------------------
----------------------------------------------------------------------
(Guitar 1)

G Gm73G Gm7
---------------------------------------------------------------
----------------3~~-----------------------------3~~------------
----------------3~~-----------------------------3~~------------
----------------3~~-----------------------------3~~------------
-5-------------------------------5-----------------------------
-3-------------------------------3-----------------------------
{Guitar 2}
{..................... wah........................}

-15h18--(15h18-tr~~~~)--(15h18-tr~~~~)-(15h18-tr~~~~)-(^18{20-20})`18--
------18---------------------------------------------------------------
-----------------------------------------------------------------------
-----------------------------------------------------------------------
-----------------------------------------------------------------------
-----------------------------------------------------------------------
(Guitar 1)


-15---------------15-----------------------------------------------------
---15h18--------15---17p15---------------------15--------15--------15----
---------17^(19)----------17-15~-----15-17^(19)---17^(19)---17^(19)------
--------------------------------15h17------------------------------------
-------------------------------------------------------------------------
-------------------------------------------------------------------------
(Guitar 1)
-------------------------
-(^18{20-20-20}`18(⁄15)--
-------------------------
-------------------------
-------------------------
-------------------------
(Guitar 1)

G Gm73G Gm7
---------------------------------------------------------------
----------------3~~-----------------------------3~~------------
----------------3~~-----------------------------3~~------------
----------------3~~-----------------------------3~~------------
-5-------------------------------5-----------------------------
-3-------------------------------3-----------------------------
{Guitar 1}

G Gm73G Gm7
---------------------------------------------------------------
----------------3~~-----------------------------3~~------------
----------------3~~-----------------------------3~~------------
----------------3~~-----------------------------3~~------------
-5-------------------------------5-----------------------------
-3-------------------------------3-----------------------------
{Guitar 2}
{..................... wah........................}

G Gm7
-------------------------
----------------3~~------
----------------3~~------
----------------3~~------
-5-----------------------
-3-----------------------
{Guitar 1}

G Gm7
------------------------
----------------3~~-----
----------------3~~-----
----------------3~~-----
-5----------------------
-3----------------------
{Guitar 2}
{....... wah.........}

G G G G G G F F F F F F G G G G
----------------------------------------------------
----------------------------------------------------
----------------------------------------------------
----------------------------------------------------
-5---5-5-5---5-5-3---3-3-3---3-3-5----------5-5-5---
-3---3-3-3---3-3-1---1-1-1---1-1-3----------3-3-3---
{4 count}
G: 3 0 0 0 2 3Gm7(3): 3 3 3 3 5 3F: 1 1 2 3 3 1
Dark blue curved dial, rose gold plated rose replica watches gold plated with the center of uk replica watches the three-pin mixed gold, time instructions clear and intuitive. Both are coated with rolex replica watches SuperLuminova Fluorescent Layer, which emits light in a rolex uk dark environment to facilitate the reading environment.