Соль-Диез

Океан Ельзи - Така, як ти

Вступ
     E  E  E  E  E  E  E  E  E  E  E  E
E||-----------1--L--------3--L--1--L--L--|
B||--------3--------3--L-----3--------3--|
G||-----2--------2-----2-----------2-----|

D||--0-----------------------------------|
A||--------------------------------------|
E||--------------------------------------|


  E  E  E  E  E  E  E  E  E  E  E  E     E  E  E  E  E  E  E  E  E  E  E  E
-----------1--L--------3--L--1--L--L--|-----------1-----L-----------0-----L--|
--------3--------3--L-----3--------3--|--------3--------3-----L--3--------3--|
-----2--------2-----2-----------2-----|-----2--------2--------2--------2-----|
--0-----------------------------------|--0-----------------0-----------------|
--------------------------------------|--------------------------------------|
--------------------------------------|--------------------------------------|


  E  E  E  E  E  E  E  E  E  E  E  E
-----------1-----L-----------0-----L--|
--------3--------3--------3--------3--|
--0-----------------0-----------------|
--------------------------------------|
--------------------------------------|

Dm
Чи знаєш ти,
Gm                F              Gm
Як сильно в душу б'є безжальний дощ?
Gm                                A
Так, ніби він завжди чекав лише мене.
Dm            Gm       F            Gm
А, як болить зимовий спокій нашого вікна
Gm                                     A
Ніжно пастельний, як і твій улюблений Моне.


Приспів:

Dm
Така, як ти
Gm     C            F
Буває раз на все життя,
         A
І то із неба.
Dm
Така, як ти
Gm        C            F
Один лиш раз на все життя,
A#
Не вистачає каяття,
C     G   F A Dm
Коли без тебе я.


Забути все, здається, я б ніколи не зумів,
Новий дзвінок скидає відлік волі на нулі
І погляд твій, він вартий більше, ніж мільйони слів
Вічно далеких, як і твій улюблений Далі.

Приспів.
E: 0 0 1 2 2 0Dm: 1 3 2 0 x xGm: 3 3 3 0 x xF: 1 1 2 3 3 1A: 0 2 2 2 0 xC: 0 1 0 2 3 xA#: 1 3 3 3 1 xG: 3 0 0 0 2 3
рокакустикаукраїнськоюлюбовь

Гитарные бои

Dark blue curved dial, rose gold plated rose replica watches gold plated with the center of uk replica watches the three-pin mixed gold, time instructions clear and intuitive. Both are coated with rolex replica watches SuperLuminova Fluorescent Layer, which emits light in a rolex uk dark environment to facilitate the reading environment.