Соль-Диез

Кино - Звезда

Dm Dm Dm C Dm Dm Dm C
F  F  F  C F  F  F  C

 Dm            C     F   C
Волчий вой да лай собак,
  Gm             C       Dm C
Крепко до боли сжатый кулак,
  Dm               C      F C
Птицей стучится в жилах кровь,
 Gm        C        Dm C
Вера да надежда, любовь.
За голосуют тысячи рук,
И высок наш флаг.
Синее небо да солнца круг,
Все на месте, да что-то не так.

           F               C       Dm C
        В небе над нами горит звезда,
         F            C         Dm  C
        Некому кроме нее нам помочь,
           F               C   Dm C
        В темную, темную, темную
         F   C Dm
        Но-о-о-очь.

Ночь пришла, за ней гроза,
Грустный дождь, да ветер шутник.
Руки в карманы, вниз глаза
Да за зубы язык.
Ох, заедает меня тоска,
Верная подруга моя.
Пей да гуляй, пой да танцуй,
Я с тобой пока.

        В небе над нами горит звезда,
        Некому кроме нее нам помочь,
        В темную, темную, темную ночь.

  Dm                      C       Dm                      C
-|-------|-------|5---5--|-------|-------|-------|5---5--|-------|
-|-------|6-5---6|-------|8---5--|-------|6-5---6|-------|8---5--|
-|7------|----7--|-------|-------|7------|----7--|-------|-------|
-|-------|-------|-------|-------|-------|-------|-------|-------|
-|-------|-------|-------|-------|-------|-------|-------|-------|
-|-------|-------|-------|-------|-------|-------|-------|-------|
  F                       C       F                       C       
-|-------|8-6-5--|5---5--|-------|-------|8-6-5--|5---5--|-------|
-|6------|------8|-------|8---5--|6------|------8|-------|8---5--|
-|-------|-------|-------|-------|-------|-------|-------|-------|
-|-------|-------|-------|-------|-------|-------|-------|-------|
-|-------|-------|-------|-------|-------|-------|-------|-------|
-|-------|-------|-------|-------|-------|-------|-------|-------|
Dm: 1 3 2 0 x xC: 0 1 0 2 3 xF: 1 1 2 3 3 1Gm: 3 3 3 0 x x
песни-80хлюбовь

Гитарные бои

Dark blue curved dial, rose gold plated rose replica watches gold plated with the center of uk replica watches the three-pin mixed gold, time instructions clear and intuitive. Both are coated with rolex replica watches SuperLuminova Fluorescent Layer, which emits light in a rolex uk dark environment to facilitate the reading environment.