Соль-Диез

Агата Кристи - Как на войне

   Am      G       C       E        Am      G       C       E
E|-0---0---3---3-1-0-------0--------0---0---3---3-1-0-------0-4|
B|-1-----1-0-------1-3-1-3-0--0-1-0-1-----1-0-------1-3-1-3-0--|
G|-2-2-----0-0-----0-------1--------2-2-----0-0-----0-------1--|
D|-2-------0-------2-------2--------2-------0-------2-------2--|
A|-0-------2-------3-------2--------0-------2-------3-------2--|
E|-0-------3-------0-------0--------0-------3-------0-------0--|

E|----------------------------------------------------------|
B|----------------------------------------------------------|
G|----------------------------------------------------------|
D|--------------------------------------------2-----2-------| x4
A|------------------------------3-0-2-3-0-3-5---3-5---5-3-2-|
E|--5-0-3-5-0-5-4-3-0-2-3-0-2-3-----------------------------|

Am        G       C         E    Am
Ляг, отдохни и послушай, что я скажу.
      G        C       E  Am
Я терпел, но сегодня я ухожу.
Я сказал: "Успокойся и рот закрой
Вот и всё до свидания чёрт с тобой”.

Припев:
         G             C
Я на тебе, как на войне,
          E              Am
А на войне, как на тебе,
Но я устал, окончен бой,
Беру портвейн, иду домой.
Окончен бой, зачах огонь,
И не осталось ничего,
А мы живём, а нам с тобою
Повезло назло.

E|---0------3-1-0--------------------0-------3-1-0-------0-4---|
B|----1-0---------3-1-3-0-0-1-0--------1-0---------3-1-3-------|
G|-2------0---------------------2----------0-------------------|
D|---------------------------------2---------------------------|
A|-------------------------------------------------------------|
E|-------------------------------------------------------------|

Боль, это боль, как её ты не назови,
Это страх, там где страх место нет любви.
Я сказал: "Успокойся и рот закрой".
Вот и всё до свидания чёрт с тобой.

Припев:

E|-------------------------------------------------------------|
B|-------------------------------------------------------------|
G|----------0---------------------------------0-------------0-1|
D|---2--------3-2--0---0---------------2--------3-2--0--0-2----|
A|-0---3-2-----------3---2--2-3-2-0------3-2-----------3-------|
E|---------3--------------------------0------3-----------------|
Am: 0 1 2 2 0 xG: 3 0 0 0 2 3C: 0 1 0 2 3 xE: 0 0 1 2 2 0
року-кострапростаялюбовьэлектрогитара

Гитарные бои

Dark blue curved dial, rose gold plated rose replica watches gold plated with the center of uk replica watches the three-pin mixed gold, time instructions clear and intuitive. Both are coated with rolex replica watches SuperLuminova Fluorescent Layer, which emits light in a rolex uk dark environment to facilitate the reading environment.